The Beatles:Blackbird

From Lyriki
Jump to navigation Jump to search
“Blackbird”
Artist: The Beatles
Albums: The Beatles (1968)

Blackbird singing in the dead of night
Take these broken wings and learn to fly
All your life
You were only waiting for this moment to arive

Blackbird singing in the dead of night
Take these sunken eyes and learn to see
All your life
You were only waiting for this moment to be free.

Blackbird fly, Blackbird fly
Into the light of a dark black night.

Blackbird singing in the dead of night
Take these broken wings and learn to fly
All your life
You were only waiting for this moment to arise
You were only waiting for this moment to arise
You were only waiting for this moment to arise


Tablature

Verse



-|-+---/---+---/---+---/---|-+---/---+---/---+---/---+---/---|-+---/---+---/---+---/---+---/---|-+---/---+---/---+---/---+---/---|
E|-3-----------------------|---------------------------------|---------------------------------|---------------------------------|
A|---------0-------2-------|-10------------------10----------|-10------------------10----------|-3-------4-------5-------6-------|
D|-------------------------|---------------------------------|---------------------------------|---------------------------------|
G|-----0-------0-------0---|---------0-------------------0---|---------0-------------------0---|-----0-------0-------0-------0---|
B|-0-------1-------3-------|-12----------12----------12------|-12----------12----------12------|-5---------------7---------------|
E|-------------------------|---------------------------------|---------------------------------|---------3---------------5-------|

-|-+---/---+---/---+---/---+---/---|-+---/---+---/---+---/---+---/---|-+---/---+---/---|-+---/---+---/---+---/---+---/---|
E|---------------------------------|---------------------------------|-----------------|---------------------------------|
A|-7-------------------7-----------|-6-------------------6-----------|-5-------4-------|-3-------------------3-----------|
D|---------------------------------|---------------------------------|-----------------|---------------------------------|
G|---------0-------------------0---|---------0-------------------0---|-----0-------0---|---------0-------------------0---|
B|-8-----------8-----------8-------|-8-----------8-----------8-------|-7---------------|-5-----------5-----------5-------|
E|---------------------------------|---------------------------------|---------3-------|---------------------------------|

-|-+---/---+---/---+---/---+---/---|-+---/---+---/---+---/---+---/---|-+---/---+---/---+---/---+---/---|-+---/---+---/---+---/---+---/---|
E|---------------------------------|---------------------------------|---------------------------------|---------------------------------|
A|-3-------------------3-----------|-2-------------------2-----------|-0-------------------0-----------|---------------------------------|
D|---------------------------------|---------------------------------|---------------------------------|-0-------------------0-----------|
G|---------0-------------------0---|---------0-------------------0---|---------0-------------------0---|---------0-------------------0---|
B|-4-----------4-----------4-------|-3-----------3-----------3-------|-2-----------2-----------2-------|-1-----------1-----------1-------|
E|---------------------------------|---------------------------------|---------------------------------|---------------------------------|

-|-+---/---+---/---+---/---+---/---|
E|-3-------------------3-----------|
A|---------------------------------|
D|---------------------------------|
G|---------0-------------------0---|
B|-0-----------0-----------0-------|
E|---------------------------------|

Bridge



-|-+---/---+---/---+---/---+---/---|-+---/---+---/---+---/---+---/---|-+---/---+---/---+---/---+---/---|-+---/---+---/---+---/---+---/---|
E|---------------------------------|---------------------------------|---------------------------------|---------------------------------|
A|-8-------7-------5-------3-------|-1-------------------1-----------|-3-------------------3-----------|-8-------7-------5-------3-------|
D|---------------------------------|---------------------------------|---------------------------------|---------------------------------|
G|-----0-------0-------0-------0---|---------0-------------------0---|---------0-------------------0---|-----0-------0-------0-------0---|
B|-10------8-------6-------5-------|-3-----------3-----------3-------|-5-----------5-----------5-------|-10------8-------6-------5-------|
E|---------------------------------|---------------------------------|---------------------------------|---------------------------------|

-|-+---/---+---/---+---/---+---/---|-+---/---+---/---+---/---+---/---|-+---/---+---/---+---/---+---/---|-+---/---+---/---+---/---+---/---|
E|---------------------------------|---------------------------------|---------------------------------|-3-------------------3-----------|
A|-1-------------------1-----------|-0-------------------0-----------|---------------------------------|---------------------------------|
D|---------------------------------|---------------------------------|-0-------------------0-----------|---------------------------------|
G|---------0-------------------0---|---------0-------------------0---|---------0-------------------0---|---------0-------------------0---|
B|-3-----------3-----------3-------|-2-----------2-----------2-------|-1-----------1-----------1-------|-0-----------0-----------0-------|
E|---------------------------------|---------------------------------|---------------------------------|---------------------------------|

Ending



-|-+---/---+---/---+---/---+---/---|-+---/---+---/---+---/---+---/---|-+---/---+---/---+---/---+---/---|-+---/---+---/---+---/---+---/---|
E|---------------------------------|---------------------------------|---------------------------------|-3-------------------3-----------|
A|-2-------------------2-----------|-0-------------------0-----------|---------------------------------|---------------------------------|
D|---------------------------------|---------------------------------|-0-------------------0-----------|---------------------------------|
G|---------0-------------------0---|---------0-------------------0---|---------0-------------------0---|---------0-------------------0---|
B|-3-----------3-----------3-------|-2-----------2-----------2-------|-1-----------1-----------1-------|-0-----------0-----------0-------|
E|---------------------------------|---------------------------------|---------------------------------|---------------------------------|

-|-+---/---+---/---+---/---+---/---|-+---/---+---/---+---/---+---/---|-+---/---+---/---+---/---+---/---|-+---/---+---/---+---/---+---/---|
E|---------------------------------|---------------------------------|---------------------------------|-3-------------------------------|
A|-2-------------------2-----------|-0-------------------0-----------|---------------------------------|---------------------------------|
D|---------------------------------|---------------------------------|-0-------------------0-----------|-0-------------------------------|
G|---------0-------------------0---|---------0-------------------0---|---------0-------------------0---|-0-------------------------------|
B|-3-----------3-----------3-------|-2-----------2-----------2-------|-1-----------1-----------1-------|-3-------------------------------|
E|---------------------------------|---------------------------------|---------------------------------|---------------------------------|